-------------------------------------------------------------------------------------------------------------------------------------------------------------------------------------------0-0000000000000000000000000002

Sierra Nevada ha encumbrado a las selecciones andaluzas en el Campeonato de España de Kilómetro Vertical, en el que la absoluta femenina se ha proclamado campeona y medalla de oro y la masculina subcampeona y presea de plata. Además, la selección junior masculina y femenina han sido segundas, con la cadete masculina en tercer lugar y la femenina primera.

En el plano individual Daniel Osanz (Aragón) y Gisela Carrión (Cataluña) han cumplido en Sierra Nevada con su condición de favoritos para proclamarse campeones de España de KV en una jornada marcada por el fuerte viento, que obligó a retrasar la carrera y recortar el recorrido por seguridad de los participantes, quedando el desnivel de la carrera en 950 metros positivos en lugar de los 1.050 previstos en principio. Y es que en las zonas altas había un viento mantenido de 80 kilómetros por hora, con algunas rachas que llegaron a marcar los 120/150 k/h.

-------------------------------------------------------------------------------------------------------------------------------------------------------------------------------------------0-0000000000000000000000000003
-------------------------------------------------------------------------------------------------------------------------------------------------------------------------------------------0-0000000000000000000000000004

Ello no impidió una carrera espectacular, en la que en la categoría masculina acompañaran en el podio a Osanz su «amigo» Antonio Alcalde (segundo) y el representante andaluz, el durqueño Jacob Gutiérrez, mientras que la alcalaína Silvia Lara, ganadora de las dos últimas ediciones del Kilómetro Vertical de Sierra Nevada, fue segunda con Fátima de Diego tercera, acompañando en el podio a Carrión.

La selección andaluza masculina sumó los puntos para proclamarse subcampeona por medio de Jacob Gutiérrez, Alberto Gamero, Ignacio Morón (oro en la subcategoría Veterano A) y Antonio ‘Pitu’ Herrera, mientras que Madrid fuera primera y Castilla y León tercera. La selección absoluta femenina puntuó por medio de Silvia Lara, Sofía García y Elena Cambil (que entraron juntas) y Amada Martínez, siendo segunda Madrid y tercera Castilla y León

-------------------------------------------------------------------------------------------------------------------------------------------------------------------------------------------0-0000000000000000000000000005
-------------------------------------------------------------------------------------------------------------------------------------------------------------------------------------------0-0000000000000000000000000006

En juniors, el triunfo en la categoría masculina ha sido para Albert Pérez, seguido por Diego de la Peña y el durqueño Nico Molina, quien fue el primer andaluz en puntuar para sumar la medalla de plata por selecciones junto con Álvaro Gómez Guitart, Jaime Aguilar y Miguel Garrido, con la convocatoria además de José Bayo Ibáñez e Isidro Fernández Elena.

En junior femenino, podio para Iturria, Valero y Miñana, siendo la mejor andaluza Beatriz Sánchez Zambrana en octavo lugar, con Tania Sánchez Zambrana, María Pageo y Luna Gutiérrez, que puntuaron para alcanzar el segundo puesto por selecciones.

-------------------------------------------------------------------------------------------------------------------------------------------------------------------------------------------0-0000000000000000000000000007
-------------------------------------------------------------------------------------------------------------------------------------------------------------------------------------------0-0000000000000000000000000008

En cadete masculino, Miguel Benítez fue cuarto siendo el primer en puntuar para la medalla de bronce por selecciones, junto a Francisco García Albarracín, Orlando Ruiz Jiménez y Víctor Allepuz Gómez, con Francisco Javier Cimarro Chinchilla como quinto convocado.

Las cadetes andaluzas fueron las únicas en puntuar como selección en el campeonato por medio de Julia Rodríguez Santiago, Carolina Peula Cervera, Lucía Algaba Ruiz, Andrea Arjona Aguilera, con María Ordóñez Cobacho completando la selección.

-------------------------------------------------------------------------------------------------------------------------------------------------------------------------------------------0-0000000000000000000000000009
-------------------------------------------------------------------------------------------------------------------------------------------------------------------------------------------0-00000000000000000000000000010

Durante el fin de semana del Kilómetro Vertical, la estación de esquí y montaña ha acogido asimismo las II Jornadas Andaluzas de Carreras por Montaña y el II Simposio de Carreras por Montaña.

Enlace a las clasificaciones (fuente www.fedme.es), aún con algunos errores en los tiempos, ajenos totalmente a la organización del Campeonato, tanto del Club Alpino Benalmádena Als Sport como de la FAM, ya que la empresa de cronometraje es, al ser Campeonato de España, competencia de la FEDME: 

– Campeonato de España KV Individual 2019: http://www.fedme.es/salaprensa/upfiles/1632_F_es.pdf

-------------------------------------------------------------------------------------------------------------------------------------------------------------------------------------------0-00000000000000000000000000011

– Campeonato de España de KV por Selecciones 2019: http://www.fedme.es/salaprensa/upfiles/1633_F_es.pdf